  0
SECTION
  2
HEADER
  9
$ACADVER
  1
AC1015
  9
$ACADMAINTVER
 70
     6
  9
$DWGCODEPAGE
  3
ANSI_1254
  9
$INSBASE
 10
0.0
 20
0.0
 30
0.0
  9
$EXTMIN
 10
0.0
 20
0.0
 30
0.0
  9
$EXTMAX
 10
279.4
 20
215.9
 30
0.0
  9
$LIMMIN
 10
0.0
 20
0.0
  9
$LIMMAX
 10
279.4
 20
215.9
  9
$ORTHOMODE
 70
     0
  9
$REGENMODE
 70
     1
  9
$FILLMODE
 70
     1
  9
$QTEXTMODE
 70
     0
  9
$MIRRTEXT
 70
     1
  9
$LTSCALE
 40
1.0
  9
$ATTMODE
 70
     1
  9
$TEXTSIZE
 40
3.5
  9
$TRACEWID
 40
1.0
  9
$TEXTSTYLE
  7
Standard
  9
$CLAYER
  8
0
  9
$CELTYPE
  6
ByLayer
  9
$CECOLOR
 62
   256
  9
$CELTSCALE
 40
1.0
  9
$DISPSILH
 70
     0
  9
$DIMSCALE
 40
1.0
  9
$DIMASZ
 40
3.5
  9
$DIMEXO
 40
1.0
  9
$DIMDLI
 40
3.75
  9
$DIMRND
 40
0.0
  9
$DIMDLE
 40
0.0
  9
$DIMEXE
 40
1.0
  9
$DIMTP
 40
0.0
  9
$DIMTM
 40
0.0
  9
$DIMTXT
 40
3.5
  9
$DIMCEN
 40
2.5
  9
$DIMTSZ
 40
0.0
  9
$DIMTOL
 70
     0
  9
$DIMLIM
 70
     0
  9
$DIMTIH
 70
     1
  9
$DIMTOH
 70
     1
  9
$DIMSE1
 70
     0
  9
$DIMSE2
 70
     0
  9
$DIMTAD
 70
     1
  9
$DIMZIN
 70
     0
  9
$DIMBLK
  1

  9
$DIMASO
 70
     1
  9
$DIMSHO
 70
     1
  9
$DIMPOST
  1

  9
$DIMAPOST
  1

  9
$DIMALT
 70
     0
  9
$DIMALTD
 70
     3
  9
$DIMALTF
 40
0.0393700787
  9
$DIMLFAC
 40
1.0
  9
$DIMTOFL
 70
     1
  9
$DIMTVP
 40
0.0
  9
$DIMTIX
 70
     0
  9
$DIMSOXD
 70
     0
  9
$DIMSAH
 70
     0
  9
$DIMBLK1
  1

  9
$DIMBLK2
  1

  9
$DIMSTYLE
  2
ISO-25
  9
$DIMCLRD
 70
     0
  9
$DIMCLRE
 70
     0
  9
$DIMCLRT
 70
     0
  9
$DIMTFAC
 40
1.0
  9
$DIMGAP
 40
1.524
  9
$DIMJUST
 70
     0
  9
$DIMSD1
 70
     0
  9
$DIMSD2
 70
     0
  9
$DIMTOLJ
 70
     0
  9
$DIMTZIN
 70
     0
  9
$DIMALTZ
 70
     0
  9
$DIMALTTZ
 70
     0
  9
$DIMUPT
 70
     0
  9
$DIMDEC
 70
     2
  9
$DIMTDEC
 70
     2
  9
$DIMALTU
 70
     2
  9
$DIMALTTD
 70
     3
  9
$DIMTXSTY
  7
Standard
  9
$DIMAUNIT
 70
     0
  9
$DIMADEC
 70
     2
  9
$DIMALTRND
 40
0.0
  9
$DIMAZIN
 70
     0
  9
$DIMDSEP
 70
    44
  9
$DIMATFIT
 70
     3
  9
$DIMFRAC
 70
     0
  9
$DIMLDRBLK
  1

  9
$DIMLUNIT
 70
     2
  9
$DIMLWD
 70
    -2
  9
$DIMLWE
 70
    -2
  9
$DIMTMOVE
 70
     0
  9
$LUNITS
 70
     2
  9
$LUPREC
 70
     2
  9
$SKETCHINC
 40
1.0
  9
$FILLETRAD
 40
10.0
  9
$AUNITS
 70
     0
  9
$AUPREC
 70
     2
  9
$MENU
  1
.
  9
$ELEVATION
 40
0.0
  9
$PELEVATION
 40
0.0
  9
$THICKNESS
 40
0.0
  9
$LIMCHECK
 70
     0
  9
$CHAMFERA
 40
0.0
  9
$CHAMFERB
 40
0.0
  9
$CHAMFERC
 40
0.0
  9
$CHAMFERD
 40
0.0
  9
$SKPOLY
 70
     0
  9
$TDCREATE
 40
2458985.699139884
  9
$TDUCREATE
 40
2458985.574139884
  9
$TDUPDATE
 40
2458985.699140139
  9
$TDUUPDATE
 40
2458985.574140139
  9
$TDINDWG
 40
0.0000000116
  9
$TDUSRTIMER
 40
0.0000000116
  9
$USRTIMER
 70
     1
  9
$ANGBASE
 50
0.0
  9
$ANGDIR
 70
     0
  9
$PDMODE
 70
     0
  9
$PDSIZE
 40
-1.0
  9
$PLINEWID
 40
0.0
  9
$SPLFRAME
 70
     0
  9
$SPLINETYPE
 70
     6
  9
$SPLINESEGS
 70
     8
  9
$HANDSEED
  5
EF
  9
$SURFTAB1
 70
     6
  9
$SURFTAB2
 70
     6
  9
$SURFTYPE
 70
     6
  9
$SURFU
 70
     6
  9
$SURFV
 70
     6
  9
$UCSBASE
  2

  9
$UCSNAME
  2

  9
$UCSORG
 10
0.0
 20
0.0
 30
0.0
  9
$UCSXDIR
 10
1.0
 20
0.0
 30
0.0
  9
$UCSYDIR
 10
0.0
 20
1.0
 30
0.0
  9
$UCSORTHOREF
  2

  9
$UCSORTHOVIEW
 70
     0
  9
$UCSORGTOP
 10
0.0
 20
0.0
 30
0.0
  9
$UCSORGBOTTOM
 10
0.0
 20
0.0
 30
0.0
  9
$UCSORGLEFT
 10
0.0
 20
0.0
 30
0.0
  9
$UCSORGRIGHT
 10
0.0
 20
0.0
 30
0.0
  9
$UCSORGFRONT
 10
0.0
 20
0.0
 30
0.0
  9
$UCSORGBACK
 10
0.0
 20
0.0
 30
0.0
  9
$PUCSBASE
  2

  9
$PUCSNAME
  2

  9
$PUCSORG
 10
0.0
 20
0.0
 30
0.0
  9
$PUCSXDIR
 10
1.0
 20
0.0
 30
0.0
  9
$PUCSYDIR
 10
0.0
 20
1.0
 30
0.0
  9
$PUCSORTHOREF
  2

  9
$PUCSORTHOVIEW
 70
     0
  9
$PUCSORGTOP
 10
0.0
 20
0.0
 30
0.0
  9
$PUCSORGBOTTOM
 10
0.0
 20
0.0
 30
0.0
  9
$PUCSORGLEFT
 10
0.0
 20
0.0
 30
0.0
  9
$PUCSORGRIGHT
 10
0.0
 20
0.0
 30
0.0
  9
$PUCSORGFRONT
 10
0.0
 20
0.0
 30
0.0
  9
$PUCSORGBACK
 10
0.0
 20
0.0
 30
0.0
  9
$USERI1
 70
     0
  9
$USERI2
 70
     0
  9
$USERI3
 70
     0
  9
$USERI4
 70
     0
  9
$USERI5
 70
     0
  9
$USERR1
 40
0.0
  9
$USERR2
 40
0.0
  9
$USERR3
 40
0.0
  9
$USERR4
 40
0.0
  9
$USERR5
 40
0.0
  9
$WORLDVIEW
 70
     1
  9
$SHADEDGE
 70
     3
  9
$SHADEDIF
 70
    70
  9
$TILEMODE
 70
     1
  9
$MAXACTVP
 70
    64
  9
$PINSBASE
 10
0.0
 20
0.0
 30
0.0
  9
$PLIMCHECK
 70
     0
  9
$PEXTMIN
 10
1.0000000000E+20
 20
1.0000000000E+20
 30
1.0000000000E+20
  9
$PEXTMAX
 10
-1.0000000000E+20
 20
-1.0000000000E+20
 30
-1.0000000000E+20
  9
$PLIMMIN
 10
0.0
 20
0.0
  9
$PLIMMAX
 10
420.0
 20
297.0
  9
$UNITMODE
 70
     0
  9
$VISRETAIN
 70
     1
  9
$PLINEGEN
 70
     0
  9
$PSLTSCALE
 70
     1
  9
$TREEDEPTH
 70
  3020
  9
$CMLSTYLE
  2
Standard
  9
$CMLJUST
 70
     0
  9
$CMLSCALE
 40
20.0
  9
$PROXYGRAPHICS
 70
     1
  9
$MEASUREMENT
 70
     1
  9
$CELWEIGHT
370
    -1
  9
$ENDCAPS
280
     0
  9
$JOINSTYLE
280
     0
  9
$LWDISPLAY
290
     1
  9
$INSUNITS
 70
     4
  9
$HYPERLINKBASE
  1

  9
$STYLESHEET
  1

  9
$XEDIT
290
     1
  9
$CEPSNTYPE
380
     0
  9
$PSTYLEMODE
290
     1
  9
$FINGERPRINTGUID
  2
{4d01163e-5929-4ef1-a522-663789b1ed38}
  9
$VERSIONGUID
  2
{FAEB1C32-E019-11D5-929B-00C0DF256EC4}
  9
$EXTNAMES
290
     1
  9
$PSVPSCALE
 40
0.0
  9
$OLESTARTUP
290
     0
  0
ENDSEC
  0
SECTION
  2
CLASSES
  0
CLASS
  1
ACDBDICTIONARYWDFLT
  2
AcDbDictionaryWithDefault
  3
ObjectDBX Classes
 90
        0
280
     0
281
     0
  0
CLASS
  1
VISUALSTYLE
  2
AcDbVisualStyle
  3
ObjectDBX Classes
 90
     4095
280
     0
281
     0
  0
CLASS
  1
MATERIAL
  2
AcDbMaterial
  3
ObjectDBX Classes
 90
     1153
280
     0
281
     0
  0
CLASS
  1
SCALE
  2
AcDbScale
  3
ObjectDBX Classes
 90
     1153
280
     0
281
     0
  0
CLASS
  1
TABLESTYLE
  2
AcDbTableStyle
  3
ObjectDBX Classes
 90
     4095
280
     0
281
     0
  0
CLASS
  1
MLEADERSTYLE
  2
AcDbMLeaderStyle
  3
ACDB_MLEADERSTYLE_CLASS
 90
     4095
280
     0
281
     0
  0
CLASS
  1
SUN
  2
AcDbSun
  3
SCENEOE
 90
     1153
280
     0
281
     0
  0
CLASS
  1
ACDBPLACEHOLDER
  2
AcDbPlaceHolder
  3
ObjectDBX Classes
 90
        0
280
     0
281
     0
  0
CLASS
  1
LAYOUT
  2
AcDbLayout
  3
ObjectDBX Classes
 90
        0
280
     0
281
     0
  0
ENDSEC
  0
SECTION
  2
TABLES
  0
TABLE
  2
VPORT
  5
8
330
0
100
AcDbSymbolTable
 70
     1
  0
VPORT
  5
29
330
8
100
AcDbSymbolTableRecord
100
AcDbViewportTableRecord
  2
*Active
 70
     0
 10
0.0
 20
0.0
 11
1.0
 21
1.0
 12
139.7
 22
107.95
 13
0.0
 23
0.0
 14
10.0
 24
10.0
 15
10.0
 25
10.0
 16
0.0
 26
0.0
 36
1.0
 17
0.0
 27
0.0
 37
0.0
 40
215.9
 41
1.2941176471
 42
50.0
 43
0.0
 44
0.0
 50
0.0
 51
0.0
 71
     0
 72
  2000
 73
     1
 74
     3
 75
     0
 76
     0
 77
     0
 78
     0
281
     0
 65
     1
110
0.0
120
0.0
130
0.0
111
1.0
121
0.0
131
0.0
112
0.0
122
1.0
132
0.0
 79
     0
146
0.0
  0
ENDTAB
  0
TABLE
  2
LTYPE
  5
5
330
0
100
AcDbSymbolTable
 70
     6
  0
LTYPE
  5
14
330
5
100
AcDbSymbolTableRecord
100
AcDbLinetypeTableRecord
  2
ByBlock
 70
     0
  3

 72
    65
 73
     0
 40
0.0
  0
LTYPE
  5
15
330
5
100
AcDbSymbolTableRecord
100
AcDbLinetypeTableRecord
  2
ByLayer
 70
     0
  3

 72
    65
 73
     0
 40
0.0
  0
LTYPE
  5
16
330
5
100
AcDbSymbolTableRecord
100
AcDbLinetypeTableRecord
  2
Continuous
 70
     0
  3
Solid line
 72
    65
 73
     0
 40
0.0
  0
LTYPE
  5
6E
330
5
100
AcDbSymbolTableRecord
100
AcDbLinetypeTableRecord
  2
HIDDEN
 70
     0
  3
Hidden __ __ __ __ __ __ __ __ __ __ __ __ __ __
 72
    65
 73
     2
 40
1.905
 49
1.27
 74
     0
 49
-0.635
 74
     0
  0
LTYPE
  5
6F
330
5
100
AcDbSymbolTableRecord
100
AcDbLinetypeTableRecord
  2
PHANTOM
 70
     0
  3
Phantom ______  __  __  ______  __  __  ______
 72
    65
 73
     6
 40
12.7
 49
6.35
 74
     0
 49
-1.27
 74
     0
 49
1.27
 74
     0
 49
-1.27
 74
     0
 49
1.27
 74
     0
 49
-1.27
 74
     0
  0
LTYPE
  5
70
330
5
100
AcDbSymbolTableRecord
100
AcDbLinetypeTableRecord
  2
CENTER
 70
     0
  3
Center ____ _ ____ _ ____ _ ____ _ ____ _ ____
 72
    65
 73
     4
 40
10.16
 49
6.35
 74
     0
 49
-1.27
 74
     0
 49
1.27
 74
     0
 49
-1.27
 74
     0
  0
LTYPE
  5
71
330
5
100
AcDbSymbolTableRecord
100
AcDbLinetypeTableRecord
  2
CENTERX2
 70
     0
  3
Center (2x) ________  __  ________  __  _____
 72
    65
 73
     4
 40
20.32
 49
12.7
 74
     0
 49
-2.54
 74
     0
 49
2.54
 74
     0
 49
-2.54
 74
     0
  0
LTYPE
  5
72
330
5
100
AcDbSymbolTableRecord
100
AcDbLinetypeTableRecord
  2
DOT2
 70
     0
  3
Dot (.5x) ........................................
 72
    65
 73
     2
 40
0.635
 49
0.0
 74
     0
 49
-0.635
 74
     0
  0
ENDTAB
  0
TABLE
  2
LAYER
  5
2
330
0
100
AcDbSymbolTable
 70
    17
  0
LAYER
  5
10
330
2
100
AcDbSymbolTableRecord
100
AcDbLayerTableRecord
  2
0
 70
     0
 62
     7
  6
Continuous
370
    -3
390
F
  0
LAYER
  5
73
330
2
100
AcDbSymbolTableRecord
100
AcDbLayerTableRecord
  2
FORMAT
 70
     0
 62
     7
  6
Continuous
370
    -3
390
F
  0
LAYER
  5
74
330
2
100
AcDbSymbolTableRecord
100
AcDbLayerTableRecord
  2
YARDIMCI_GEOMETRI
 70
     0
 62
    -6
  6
Continuous
290
     0
370
    -3
390
F
  0
LAYER
  5
75
330
2
100
AcDbSymbolTableRecord
100
AcDbLayerTableRecord
  2
SAYFA_CERCEVESI
 70
     0
 62
     7
  6
Continuous
370
    25
390
F
  0
LAYER
  5
76
330
2
100
AcDbSymbolTableRecord
100
AcDbLayerTableRecord
  2
ANTET
 70
     0
 62
     7
  6
Continuous
370
    -3
390
F
  0
LAYER
  5
77
330
2
100
AcDbSymbolTableRecord
100
AcDbLayerTableRecord
  2
OLCU
 70
     0
 62
   150
  6
Continuous
370
    -3
390
F
  0
LAYER
  5
78
330
2
100
AcDbSymbolTableRecord
100
AcDbLayerTableRecord
  2
METIN
 70
     0
 62
    96
  6
Continuous
370
    -3
390
F
  0
LAYER
  5
79
330
2
100
AcDbSymbolTableRecord
100
AcDbLayerTableRecord
  2
BALON
 70
     0
 62
     5
  6
Continuous
370
    -3
390
F
  0
LAYER
  5
7A
330
2
100
AcDbSymbolTableRecord
100
AcDbLayerTableRecord
  2
VURGU
 70
     0
 62
     7
  6
Continuous
370
    -3
390
F
  0
LAYER
  5
7B
330
2
100
AcDbSymbolTableRecord
100
AcDbLayerTableRecord
  2
SILIK
 70
     0
 62
     7
  6
Continuous
370
    -3
390
F
  0
LAYER
  5
7C
330
2
100
AcDbSymbolTableRecord
100
AcDbLayerTableRecord
  2
MODEL
 70
     0
 62
     7
  6
Continuous
370
    -3
390
F
  0
LAYER
  5
7D
330
2
100
AcDbSymbolTableRecord
100
AcDbLayerTableRecord
  2
DETAYLANDıRMA
 70
     0
 62
   190
  6
Continuous
370
    -3
390
F
  0
LAYER
  5
7E
330
2
100
AcDbSymbolTableRecord
100
AcDbLayerTableRecord
  2
TOLERANS
 70
     0
 62
   230
  6
Continuous
370
    -3
390
F
  0
LAYER
  5
7F
330
2
100
AcDbSymbolTableRecord
100
AcDbLayerTableRecord
  2
MERKEZ_CIZGILERI
 70
     0
 62
    30
  6
Continuous
370
    -3
390
F
  0
LAYER
  5
80
330
2
100
AcDbSymbolTableRecord
100
AcDbLayerTableRecord
  2
KESIT-DETAY_CIZGILERI
 70
     0
 62
     7
  6
Continuous
370
    -3
390
F
  0
LAYER
  5
81
330
2
100
AcDbSymbolTableRecord
100
AcDbLayerTableRecord
  2
\U+041E\U+0421\U+0415\U+0412\U+042B\U+0415
 70
     0
 62
     7
  6
Continuous
370
    -3
390
F
  0
LAYER
  5
82
330
2
100
AcDbSymbolTableRecord
100
AcDbLayerTableRecord
  2
\U+0412\U+041E\U+0414\U+042F\U+041D\U+042B\U+0415_\U+0417\U+041D\U+0410\U+041A\U+0418
 70
     0
 62
    11
  6
Continuous
370
    -3
390
F
  0
ENDTAB
  0
TABLE
  2
STYLE
  5
3
330
0
100
AcDbSymbolTable
 70
     1
  0
STYLE
  5
11
330
3
100
AcDbSymbolTableRecord
100
AcDbTextStyleTableRecord
  2
Standard
 70
     0
 40
0.0
 41
1.0
 50
0.0
 71
     0
 42
3.5
  3
txt
  4

  0
ENDTAB
  0
TABLE
  2
VIEW
  5
6
330
0
100
AcDbSymbolTable
 70
     0
  0
ENDTAB
  0
TABLE
  2
UCS
  5
7
330
0
100
AcDbSymbolTable
 70
     0
  0
ENDTAB
  0
TABLE
  2
APPID
  5
9
330
0
100
AcDbSymbolTable
 70
     1
  0
APPID
  5
12
330
9
100
AcDbSymbolTableRecord
100
AcDbRegAppTableRecord
  2
ACAD
 70
     0
  0
ENDTAB
  0
TABLE
  2
DIMSTYLE
  5
A
330
0
100
AcDbSymbolTable
 70
     1
100
AcDbDimStyleTable
  0
DIMSTYLE
105
27
330
A
100
AcDbSymbolTableRecord
100
AcDbDimStyleTableRecord
  2
ISO-25
 70
     0
 41
2.5
 42
0.625
 43
3.75
 44
1.25
 73
     0
 74
     0
 77
     1
 78
     8
140
2.5
141
2.5
143
0.0393700787
147
0.625
171
     3
172
     1
178
     0
271
     2
272
     2
274
     3
278
    44
283
     0
284
     8
340
11
  0
ENDTAB
  0
TABLE
  2
BLOCK_RECORD
  5
1
330
0
100
AcDbSymbolTable
 70
     2
  0
BLOCK_RECORD
  5
1F
330
1
100
AcDbSymbolTableRecord
100
AcDbBlockTableRecord
  2
*Model_Space
340
22
  0
BLOCK_RECORD
  5
1B
330
1
100
AcDbSymbolTableRecord
100
AcDbBlockTableRecord
  2
*Paper_Space
340
1E
  0
BLOCK_RECORD
  5
23
330
1
100
AcDbSymbolTableRecord
100
AcDbBlockTableRecord
  2
*Paper_Space0
340
26
  0
BLOCK_RECORD
  5
88
330
1
100
AcDbSymbolTableRecord
100
AcDbBlockTableRecord
  2
SW_CENTERMARKSYMBOL_0
340
0
102
{BLKREFS
331
93
102
}
  0
ENDTAB
  0
ENDSEC
  0
SECTION
  2
BLOCKS
  0
BLOCK
  5
20
330
1F
100
AcDbEntity
  8
0
100
AcDbBlockBegin
  2
*Model_Space
 70
     0
 10
0.0
 20
0.0
 30
0.0
  3
*Model_Space
  1

  0
ENDBLK
  5
21
330
1F
100
AcDbEntity
  8
0
100
AcDbBlockEnd
  0
BLOCK
  5
1C
330
1B
100
AcDbEntity
 67
     1
  8
0
100
AcDbBlockBegin
  2
*Paper_Space
 70
     0
 10
0.0
 20
0.0
 30
0.0
  3
*Paper_Space
  1

  0
ENDBLK
  5
1D
330
1B
100
AcDbEntity
 67
     1
  8
0
100
AcDbBlockEnd
  0
BLOCK
  5
24
330
23
100
AcDbEntity
  8
0
100
AcDbBlockBegin
  2
*Paper_Space0
 70
     0
 10
0.0
 20
0.0
 30
0.0
  3
*Paper_Space0
  1

  0
ENDBLK
  5
25
330
23
100
AcDbEntity
  8
0
100
AcDbBlockEnd
  0
BLOCK
  5
89
330
88
100
AcDbEntity
  8
0
100
AcDbBlockBegin
  2
SW_CENTERMARKSYMBOL_0
 70
     0
 10
0.0
 20
0.0
 30
0.0
  3
SW_CENTERMARKSYMBOL_0
  1

  0
LINE
  5
8B
330
88
100
AcDbEntity
  8
FORMAT
 62
     0
100
AcDbLine
 10
0.0
 20
0.0
 30
0.0
 11
0.0
 21
2.5
 31
0.0
  0
LINE
  5
8C
330
88
100
AcDbEntity
  8
FORMAT
 62
     0
100
AcDbLine
 10
0.0
 20
0.0
 30
0.0
 11
-2.5
 21
0.0
 31
0.0
  0
LINE
  5
8D
330
88
100
AcDbEntity
  8
FORMAT
 62
     0
100
AcDbLine
 10
0.0
 20
0.0
 30
0.0
 11
0.0
 21
-2.5
 31
0.0
  0
LINE
  5
8E
330
88
100
AcDbEntity
  8
FORMAT
 62
     0
100
AcDbLine
 10
0.0
 20
0.0
 30
0.0
 11
2.5
 21
0.0
 31
0.0
  0
LINE
  5
8F
330
88
100
AcDbEntity
  8
FORMAT
 62
     0
100
AcDbLine
 10
0.0
 20
5.0
 30
0.0
 11
0.0
 21
72.5
 31
0.0
  0
LINE
  5
90
330
88
100
AcDbEntity
  8
FORMAT
 62
     0
100
AcDbLine
 10
-5.0
 20
0.0
 30
0.0
 11
-72.5
 21
0.0
 31
0.0
  0
LINE
  5
91
330
88
100
AcDbEntity
  8
FORMAT
 62
     0
100
AcDbLine
 10
0.0
 20
-5.0
 30
0.0
 11
0.0
 21
-72.5
 31
0.0
  0
LINE
  5
92
330
88
100
AcDbEntity
  8
FORMAT
 62
     0
100
AcDbLine
 10
5.0
 20
0.0
 30
0.0
 11
72.5
 21
0.0
 31
0.0
  0
ENDBLK
  5
8A
330
88
100
AcDbEntity
  8
0
100
AcDbBlockEnd
  0
ENDSEC
  0
SECTION
  2
ENTITIES
  0
CIRCLE
  5
83
330
1F
100
AcDbEntity
  8
0
  6
Continuous
 62
     7
370
    25
100
AcDbCircle
 10
139.395004093
 20
107.5851680021
 30
0.0
 40
70.00000000000001
  0
CIRCLE
  5
84
330
1F
100
AcDbEntity
  8
0
  6
Continuous
 62
     7
370
    25
100
AcDbCircle
 10
139.395004093
 20
107.5851680021
 30
0.0
 40
57.30000000000001
  0
CIRCLE
  5
85
330
1F
100
AcDbEntity
  8
0
  6
Continuous
 62
     7
370
    25
100
AcDbCircle
 10
139.395004093
 20
107.5851680021
 30
0.0
 40
57.14584265546813
  0
CIRCLE
  5
86
330
1F
100
AcDbEntity
  8
0
  6
Continuous
 62
     7
370
    25
100
AcDbCircle
 10
139.395004093
 20
107.5851680021
 30
0.0
 40
45.15415734453191
  0
CIRCLE
  5
87
330
1F
100
AcDbEntity
  8
0
  6
Continuous
 62
     7
370
    25
100
AcDbCircle
 10
139.395004093
 20
107.5851680021
 30
0.0
 40
45.00000000000001
  0
INSERT
  5
93
330
1F
100
AcDbEntity
  8
FORMAT
 62
     7
100
AcDbBlockReference
  2
SW_CENTERMARKSYMBOL_0
 10
139.395004093
 20
107.5851680021
 30
0.0
  0
ARC
  5
94
330
1F
100
AcDbEntity
  8
0
  6
Continuous
 62
     7
370
    25
100
AcDbCircle
 10
-126.6570495753
 20
175.5851680021
 30
0.0
 40
2.000000000000028
100
AcDbArc
 50
75.7354877019
 51
90.0
  0
ARC
  5
95
330
1F
100
AcDbEntity
  8
0
  6
Continuous
 62
     7
370
    25
100
AcDbCircle
 10
-126.6570495753
 20
39.5851680021
 30
0.0
 40
2.00000000000001
100
AcDbArc
 50
270.0
 51
284.2645122981
  0
LINE
  5
96
330
1F
100
AcDbEntity
  8
0
  6
Continuous
 62
     7
370
    25
100
AcDbLine
 10
-126.6570497846
 20
177.5851683001
 30
0.0
 11
-218.4067942744
 21
177.5851683001
 31
0.0
  0
LINE
  5
97
330
1F
100
AcDbEntity
  8
0
  6
Continuous
 62
     7
370
    25
100
AcDbLine
 10
-218.4067942744
 20
37.5851677041
 30
0.0
 11
-126.6570497846
 21
37.5851677041
 31
0.0
  0
LINE
  5
98
330
1F
100
AcDbEntity
  8
0
  6
Continuous
 62
     7
370
    25
100
AcDbLine
 10
-126.1642516201
 20
37.6468287091
 30
0.0
 11
-67.6493324881
 21
52.5235035698
 31
0.0
  0
LINE
  5
99
330
1F
100
AcDbEntity
  8
0
  6
Continuous
 62
     7
370
    25
100
AcDbLine
 10
-67.6493324881
 20
162.6468324344
 30
0.0
 11
-126.1642516201
 21
177.5235072951
 31
0.0
  0
ARC
  5
9A
330
1F
100
AcDbEntity
  8
0
  6
Continuous
 62
     7
370
    25
100
AcDbCircle
 10
-67.1565362364
 20
164.5851680021
 30
0.0
 40
1.999999999999986
100
AcDbArc
 50
255.7354877019
 51
270.0
  0
ARC
  5
9B
330
1F
100
AcDbEntity
  8
0
  6
Continuous
 62
     7
370
    25
100
AcDbCircle
 10
-67.1565362364
 20
50.5851680021
 30
0.0
 40
1.999999999999986
100
AcDbArc
 50
90.0
 51
104.2645122981
  0
LINE
  5
9C
330
1F
100
AcDbEntity
  8
0
  6
Continuous
 62
     7
370
    25
100
AcDbLine
 10
14.5932085271
 20
162.5851677041
 30
0.0
 11
-67.1565361862
 21
162.5851677041
 31
0.0
  0
LINE
  5
9D
330
1F
100
AcDbEntity
  8
0
  6
Continuous
 62
     7
370
    25
100
AcDbLine
 10
-67.1565361862
 20
52.5851683001
 30
0.0
 11
14.5932085271
 21
52.5851683001
 31
0.0
  0
LINE
  5
9E
330
1F
100
AcDbEntity
  8
0
  6
Continuous
 62
     7
370
    25
100
AcDbLine
 10
-218.4067942744
 20
177.5851683001
 30
0.0
 11
-218.4067942744
 21
37.5851677041
 31
0.0
  0
LINE
  5
9F
330
1F
100
AcDbEntity
  8
0
  6
Continuous
 62
     7
370
    25
100
AcDbLine
 10
14.5932085271
 20
162.5851677041
 30
0.0
 11
14.5932085271
 21
52.5851683001
 31
0.0
  0
LINE
  5
A0
330
1F
100
AcDbEntity
  8
0
  6
Continuous
 62
     1
370
    25
100
AcDbLine
 10
-126.1642516201
 20
177.5235072951
 30
0.0
 11
-126.1642516201
 21
37.6468287091
 31
0.0
  0
LINE
  5
A1
330
1F
100
AcDbEntity
  8
0
  6
Continuous
 62
     1
370
    25
100
AcDbLine
 10
-126.6570497846
 20
177.5851683001
 30
0.0
 11
-126.6570497846
 21
37.5851677041
 31
0.0
  0
LINE
  5
A2
330
1F
100
AcDbEntity
  8
0
  6
Continuous
 62
     1
370
    25
100
AcDbLine
 10
-67.6493324881
 20
162.6468324344
 30
0.0
 11
-67.6493324881
 21
52.5235035698
 31
0.0
  0
LINE
  5
A3
330
1F
100
AcDbEntity
  8
0
  6
Continuous
 62
     1
370
    25
100
AcDbLine
 10
-67.1565361862
 20
162.5851677041
 30
0.0
 11
-67.1565361862
 21
52.5851683001
 31
0.0
  0
ARC
  5
A4
330
1F
100
AcDbEntity
  8
0
  6
Continuous
 62
     7
370
    25
100
AcDbCircle
 10
406.8479628122
 20
39.5851680021
 30
0.0
 40
2.000000000000017
100
AcDbArc
 50
255.7354877019
 51
270.0
  0
ARC
  5
A5
330
1F
100
AcDbEntity
  8
0
  6
Continuous
 62
     7
370
    25
100
AcDbCircle
 10
406.8479628122
 20
175.5851680021
 30
0.0
 40
2.000000000000028
100
AcDbArc
 50
90.0
 51
104.2645122981
  0
LINE
  5
A6
330
1F
100
AcDbEntity
  8
0
  6
Continuous
 62
     7
370
    25
100
AcDbLine
 10
406.8479630215
 20
37.5851677041
 30
0.0
 11
498.5977075113
 21
37.5851677041
 31
0.0
  0
LINE
  5
A7
330
1F
100
AcDbEntity
  8
0
  6
Continuous
 62
     7
370
    25
100
AcDbLine
 10
498.5977075113
 20
177.5851683001
 30
0.0
 11
406.8479630215
 21
177.5851683001
 31
0.0
  0
LINE
  5
A8
330
1F
100
AcDbEntity
  8
0
  6
Continuous
 62
     7
370
    25
100
AcDbLine
 10
406.355164857
 20
177.5235072951
 30
0.0
 11
347.840245725
 21
162.6468324344
 31
0.0
  0
LINE
  5
A9
330
1F
100
AcDbEntity
  8
0
  6
Continuous
 62
     7
370
    25
100
AcDbLine
 10
347.840245725
 20
52.5235035698
 30
0.0
 11
406.355164857
 21
37.6468287091
 31
0.0
  0
ARC
  5
AA
330
1F
100
AcDbEntity
  8
0
  6
Continuous
 62
     7
370
    25
100
AcDbCircle
 10
347.3474494733
 20
50.5851680021
 30
0.0
 40
1.99999999999999
100
AcDbArc
 50
75.7354877019
 51
90.0
  0
ARC
  5
AB
330
1F
100
AcDbEntity
  8
0
  6
Continuous
 62
     7
370
    25
100
AcDbCircle
 10
347.3474494733
 20
164.5851680021
 30
0.0
 40
1.99999999999999
100
AcDbArc
 50
270.0
 51
284.2645122981
  0
LINE
  5
AC
330
1F
100
AcDbEntity
  8
0
  6
Continuous
 62
     7
370
    25
100
AcDbLine
 10
265.5977047098
 20
52.5851683001
 30
0.0
 11
347.3474494231
 21
52.5851683001
 31
0.0
  0
LINE
  5
AD
330
1F
100
AcDbEntity
  8
0
  6
Continuous
 62
     7
370
    25
100
AcDbLine
 10
347.3474494231
 20
162.5851677041
 30
0.0
 11
265.5977047098
 21
162.5851677041
 31
0.0
  0
LINE
  5
AE
330
1F
100
AcDbEntity
  8
0
  6
Continuous
 62
     7
370
    25
100
AcDbLine
 10
498.5977075113
 20
107.5851680021
 30
0.0
 11
498.5977075113
 21
177.5851683001
 31
0.0
  0
LINE
  5
AF
330
1F
100
AcDbEntity
  8
0
  6
Continuous
 62
     7
370
    25
100
AcDbLine
 10
498.5977075113
 20
37.5851677041
 30
0.0
 11
498.5977075113
 21
107.5851680021
 31
0.0
  0
LINE
  5
B0
330
1F
100
AcDbEntity
  8
0
  6
Continuous
 62
     7
370
    25
100
AcDbLine
 10
265.5977047098
 20
107.5851680021
 30
0.0
 11
265.5977047098
 21
162.5851677041
 31
0.0
  0
LINE
  5
B1
330
1F
100
AcDbEntity
  8
0
  6
Continuous
 62
     7
370
    25
100
AcDbLine
 10
265.5977047098
 20
52.5851683001
 30
0.0
 11
265.5977047098
 21
107.5851680021
 31
0.0
  0
LINE
  5
B2
330
1F
100
AcDbEntity
  8
0
  6
Continuous
 62
     1
370
    25
100
AcDbLine
 10
406.355164857
 20
107.5851680021
 30
0.0
 11
406.355164857
 21
177.5235072951
 31
0.0
  0
LINE
  5
B3
330
1F
100
AcDbEntity
  8
0
  6
Continuous
 62
     1
370
    25
100
AcDbLine
 10
406.355164857
 20
37.6468287091
 30
0.0
 11
406.355164857
 21
107.5851680021
 31
0.0
  0
LINE
  5
B4
330
1F
100
AcDbEntity
  8
0
  6
Continuous
 62
     1
370
    25
100
AcDbLine
 10
406.8479630215
 20
107.5851680021
 30
0.0
 11
406.8479630215
 21
177.5851683001
 31
0.0
  0
LINE
  5
B5
330
1F
100
AcDbEntity
  8
0
  6
Continuous
 62
     1
370
    25
100
AcDbLine
 10
406.8479630215
 20
37.5851677041
 30
0.0
 11
406.8479630215
 21
107.5851680021
 31
0.0
  0
LINE
  5
B6
330
1F
100
AcDbEntity
  8
0
  6
Continuous
 62
     1
370
    25
100
AcDbLine
 10
347.840245725
 20
107.5851680021
 30
0.0
 11
347.840245725
 21
162.6468324344
 31
0.0
  0
LINE
  5
B7
330
1F
100
AcDbEntity
  8
0
  6
Continuous
 62
     1
370
    25
100
AcDbLine
 10
347.840245725
 20
52.5235035698
 30
0.0
 11
347.840245725
 21
107.5851680021
 31
0.0
  0
LINE
  5
B8
330
1F
100
AcDbEntity
  8
0
  6
Continuous
 62
     1
370
    25
100
AcDbLine
 10
347.3474494231
 20
107.5851680021
 30
0.0
 11
347.3474494231
 21
162.5851677041
 31
0.0
  0
LINE
  5
B9
330
1F
100
AcDbEntity
  8
0
  6
Continuous
 62
     1
370
    25
100
AcDbLine
 10
347.3474494231
 20
52.5851683001
 30
0.0
 11
347.3474494231
 21
107.5851680021
 31
0.0
  0
ARC
  5
BA
330
1F
100
AcDbEntity
  8
0
  6
Continuous
 62
     7
370
    25
100
AcDbCircle
 10
207.395004093
 20
343.3782505692
 30
0.0
 40
2.000000000000017
100
AcDbArc
 50
345.7354877019
 51
360.0
  0
ARC
  5
BB
330
1F
100
AcDbEntity
  8
0
  6
Continuous
 62
     7
370
    25
100
AcDbCircle
 10
71.395004093
 20
343.3782505692
 30
0.0
 40
2.000000000000017
100
AcDbArc
 50
180.0
 51
194.2645122981
  0
LINE
  5
BC
330
1F
100
AcDbEntity
  8
0
  6
Continuous
 62
     7
370
    25
100
AcDbLine
 10
209.3950043911
 20
343.3782507785
 30
0.0
 11
209.3950043911
 21
435.1279952683
 31
0.0
  0
LINE
  5
BD
330
1F
100
AcDbEntity
  8
0
  6
Continuous
 62
     7
370
    25
100
AcDbLine
 10
69.395003795
 20
435.1279952683
 30
0.0
 11
69.395003795
 21
343.3782507785
 31
0.0
  0
LINE
  5
BE
330
1F
100
AcDbEntity
  8
0
  6
Continuous
 62
     7
370
    25
100
AcDbLine
 10
69.4566648
 20
342.885452614
 30
0.0
 11
84.3333396608
 21
284.370533482
 31
0.0
  0
LINE
  5
BF
330
1F
100
AcDbEntity
  8
0
  6
Continuous
 62
     7
370
    25
100
AcDbLine
 10
194.4566685253
 20
284.370533482
 30
0.0
 11
209.3333433861
 21
342.885452614
 31
0.0
  0
ARC
  5
C0
330
1F
100
AcDbEntity
  8
0
  6
Continuous
 62
     7
370
    25
100
AcDbCircle
 10
196.395004093
 20
283.8777372303
 30
0.0
 40
2.000000000000003
100
AcDbArc
 50
165.7354877019
 51
180.0
  0
ARC
  5
C1
330
1F
100
AcDbEntity
  8
0
  6
Continuous
 62
     7
370
    25
100
AcDbCircle
 10
82.395004093
 20
283.8777372303
 30
0.0
 40
1.99999999999999
100
AcDbArc
 50
0.0
 51
14.2645122981
  0
LINE
  5
C2
330
1F
100
AcDbEntity
  8
0
  6
Continuous
 62
     7
370
    25
100
AcDbLine
 10
194.395003795
 20
202.1279924668
 30
0.0
 11
194.395003795
 21
283.8777371802
 31
0.0
  0
LINE
  5
C3
330
1F
100
AcDbEntity
  8
0
  6
Continuous
 62
     7
370
    25
100
AcDbLine
 10
84.3950043911
 20
283.8777371802
 30
0.0
 11
84.3950043911
 21
202.1279924668
 31
0.0
  0
LINE
  5
C4
330
1F
100
AcDbEntity
  8
0
  6
Continuous
 62
     7
370
    25
100
AcDbLine
 10
209.3950043911
 20
435.1279952683
 30
0.0
 11
69.395003795
 21
435.1279952683
 31
0.0
  0
LINE
  5
C5
330
1F
100
AcDbEntity
  8
0
  6
Continuous
 62
     7
370
    25
100
AcDbLine
 10
194.395003795
 20
202.1279924668
 30
0.0
 11
84.3950043911
 21
202.1279924668
 31
0.0
  0
LINE
  5
C6
330
1F
100
AcDbEntity
  8
0
  6
Continuous
 62
     1
370
    25
100
AcDbLine
 10
209.3333433861
 20
342.885452614
 30
0.0
 11
69.4566648
 21
342.885452614
 31
0.0
  0
LINE
  5
C7
330
1F
100
AcDbEntity
  8
0
  6
Continuous
 62
     1
370
    25
100
AcDbLine
 10
209.3950043911
 20
343.3782507785
 30
0.0
 11
69.395003795
 21
343.3782507785
 31
0.0
  0
LINE
  5
C8
330
1F
100
AcDbEntity
  8
0
  6
Continuous
 62
     1
370
    25
100
AcDbLine
 10
194.4566685253
 20
284.370533482
 30
0.0
 11
84.3333396608
 21
284.370533482
 31
0.0
  0
LINE
  5
C9
330
1F
100
AcDbEntity
  8
0
  6
Continuous
 62
     1
370
    25
100
AcDbLine
 10
194.395003795
 20
283.8777371802
 30
0.0
 11
84.3950043911
 21
283.8777371802
 31
0.0
  0
ARC
  5
CA
330
1F
100
AcDbEntity
  8
0
  6
Continuous
 62
     7
370
    25
100
AcDbCircle
 10
71.395004093
 20
-125.6910113533
 30
0.0
 40
2.000000000000017
100
AcDbArc
 50
165.7354877019
 51
180.0
  0
ARC
  5
CB
330
1F
100
AcDbEntity
  8
0
  6
Continuous
 62
     7
370
    25
100
AcDbCircle
 10
207.395004093
 20
-125.6910113533
 30
0.0
 40
2.000000000000017
100
AcDbArc
 50
0.0
 51
14.2645122981
  0
LINE
  5
CC
330
1F
100
AcDbEntity
  8
0
  6
Continuous
 62
     7
370
    25
100
AcDbLine
 10
69.395003795
 20
-125.6910115626
 30
0.0
 11
69.395003795
 21
-217.4407560524
 31
0.0
  0
LINE
  5
CD
330
1F
100
AcDbEntity
  8
0
  6
Continuous
 62
     7
370
    25
100
AcDbLine
 10
209.3950043911
 20
-217.4407560524
 30
0.0
 11
209.3950043911
 21
-125.6910115626
 31
0.0
  0
LINE
  5
CE
330
1F
100
AcDbEntity
  8
0
  6
Continuous
 62
     7
370
    25
100
AcDbLine
 10
209.3333433861
 20
-125.1982133981
 30
0.0
 11
194.4566685253
 21
-66.6832942661
 31
0.0
  0
LINE
  5
CF
330
1F
100
AcDbEntity
  8
0
  6
Continuous
 62
     7
370
    25
100
AcDbLine
 10
84.3333396608
 20
-66.6832942661
 30
0.0
 11
69.4566648
 21
-125.1982133981
 31
0.0
  0
ARC
  5
D0
330
1F
100
AcDbEntity
  8
0
  6
Continuous
 62
     7
370
    25
100
AcDbCircle
 10
82.395004093
 20
-66.1904980144
 30
0.0
 40
2.0
100
AcDbArc
 50
345.7354877019
 51
0.0
  0
ARC
  5
D1
330
1F
100
AcDbEntity
  8
0
  6
Continuous
 62
     7
370
    25
100
AcDbCircle
 10
196.395004093
 20
-66.1904980144
 30
0.0
 40
2.000000000000014
100
AcDbArc
 50
180.0
 51
194.2645122981
  0
LINE
  5
D2
330
1F
100
AcDbEntity
  8
0
  6
Continuous
 62
     7
370
    25
100
AcDbLine
 10
84.3950043911
 20
15.559246749
 30
0.0
 11
84.3950043911
 21
-66.1904979643
 31
0.0
  0
LINE
  5
D3
330
1F
100
AcDbEntity
  8
0
  6
Continuous
 62
     7
370
    25
100
AcDbLine
 10
194.395003795
 20
-66.1904979643
 30
0.0
 11
194.395003795
 21
15.559246749
 31
0.0
  0
LINE
  5
D4
330
1F
100
AcDbEntity
  8
0
  6
Continuous
 62
     7
370
    25
100
AcDbLine
 10
69.395003795
 20
-217.4407560524
 30
0.0
 11
209.3950043911
 21
-217.4407560524
 31
0.0
  0
LINE
  5
D5
330
1F
100
AcDbEntity
  8
0
  6
Continuous
 62
     7
370
    25
100
AcDbLine
 10
84.3950043911
 20
15.559246749
 30
0.0
 11
194.395003795
 21
15.559246749
 31
0.0
  0
LINE
  5
D6
330
1F
100
AcDbEntity
  8
0
  6
Continuous
 62
     1
370
    25
100
AcDbLine
 10
69.4566648
 20
-125.1982133981
 30
0.0
 11
209.3333433861
 21
-125.1982133981
 31
0.0
  0
LINE
  5
D7
330
1F
100
AcDbEntity
  8
0
  6
Continuous
 62
     1
370
    25
100
AcDbLine
 10
69.395003795
 20
-125.6910115626
 30
0.0
 11
209.3950043911
 21
-125.6910115626
 31
0.0
  0
LINE
  5
D8
330
1F
100
AcDbEntity
  8
0
  6
Continuous
 62
     1
370
    25
100
AcDbLine
 10
84.3333396608
 20
-66.6832942661
 30
0.0
 11
194.4566685253
 21
-66.6832942661
 31
0.0
  0
LINE
  5
D9
330
1F
100
AcDbEntity
  8
0
  6
Continuous
 62
     1
370
    25
100
AcDbLine
 10
84.3950043911
 20
-66.1904979643
 30
0.0
 11
194.395003795
 21
-66.1904979643
 31
0.0
  0
LINE
  5
DA
330
1F
100
AcDbEntity
  8
0
  6
Continuous
 62
     7
370
    25
100
AcDbLine
 10
382.3963985233
 20
-12.084295002
 30
0.0
 11
317.5195320224
 21
25.3683228275
 31
0.0
  0
LINE
  5
DB
330
1F
100
AcDbEntity
  8
0
  6
Continuous
 62
     7
370
    25
100
AcDbLine
 10
247.5252228342
 20
-95.8785173701
 30
0.0
 11
312.4020893351
 21
-133.3311351996
 31
0.0
  0
SPLINE
  5
DC
330
1F
100
AcDbEntity
  8
0
  6
Continuous
 62
     7
370
    25
100
AcDbSpline
210
0.0
220
0.0
230
1.0
 70
     8
 71
     3
 72
     9
 73
     5
 74
     0
 42
0.000000001
 43
0.00000001
 40
0.0
 40
0.0
 40
0.0
 40
0.0
 40
0.3051219592098459
 40
0.9999999999999999
 40
0.9999999999999999
 40
0.9999999999999999
 40
0.9999999999999999
 10
386.3828674092912
 20
-14.96945401957851
 30
0.0
 10
386.2476159104201
 20
-14.8421666445515
 30
0.0
 10
385.8043456219708
 20
-14.42499780047141
 30
0.0
 10
385.3163867189776
 20
-14.07229100586538
 30
0.0
 10
384.9773147924795
 20
-13.82720279945617
 30
0.0
  0
LINE
  5
DD
330
1F
100
AcDbEntity
  8
0
  6
Continuous
 62
     7
370
    25
100
AcDbLine
 10
315.053268352
 20
-134.6536296935
 30
0.0
 11
316.8392226184
 21
-135.3325474654
 31
0.0
  0
LINE
  5
DE
330
1F
100
AcDbEntity
  8
0
  6
Continuous
 62
     7
370
    25
100
AcDbLine
 10
319.6386702972
 20
-136.1216491591
 30
0.0
 11
366.9940737622
 21
-146.5616064393
 31
0.0
  0
LINE
  5
DF
330
1F
100
AcDbEntity
  8
0
  6
Continuous
 62
     7
370
    25
100
AcDbLine
 10
421.1541307004
 20
-52.7434704889
 30
0.0
 11
388.4318022053
 21
-16.9555341304
 31
0.0
  0
LINE
  5
E0
330
1F
100
AcDbEntity
  8
0
  6
Continuous
 62
     7
370
    25
100
AcDbLine
 10
474.7760250667
 20
-82.733954375
 30
0.0
 11
419.2858557364
 21
-50.700161479
 31
0.0
  0
LINE
  5
E1
330
1F
100
AcDbEntity
  8
0
  6
Continuous
 62
     7
370
    25
100
AcDbLine
 10
364.2903244543
 20
-145.9655396134
 30
0.0
 11
419.7804937847
 21
-177.9993325094
 31
0.0
  0
LWPOLYLINE
  5
E2
330
1F
100
AcDbEntity
  8
0
  6
Continuous
 62
     7
370
    25
100
AcDbPolyline
 90
        3
 70
   128
 43
0.0
 10
382.3963985233
 20
-12.084295002
 10
384.0318569303
 20
-13.1210856198
 10
384.8509361501
 20
-13.7155904628
  0
LWPOLYLINE
  5
E3
330
1F
100
AcDbEntity
  8
0
  6
Continuous
 62
     7
370
    25
100
AcDbPolyline
 90
        3
 70
   128
 43
0.0
 10
314.9096476974
 20
-134.5847410941
 10
313.6145883123
 20
-133.9841991408
 10
312.4020893351
 20
-133.3311351996
  0
LWPOLYLINE
  5
E4
330
1F
100
AcDbEntity
  8
0
  6
Continuous
 62
     7
370
    25
100
AcDbPolyline
 90
      116
 70
   128
 43
0.0
 10
233.0249025345
 20
-63.8293813067
 10
233.0987648865
 20
-60.6653956858
 10
233.3201201349
 20
-57.4255798987
 10
233.6883202719
 20
-54.119594805
 10
234.2022589426
 20
-50.7573118698
 10
234.8604030555
 20
-47.3487637361
 10
235.6607875138
 20
-43.9041259736
 10
236.6010310205
 20
-40.4336714518
 10
237.6783150052
 20
-36.9477665366
 10
238.8894363073
 20
-33.4568064551
 10
240.2307755662
 20
-29.971213772
 10
241.6983261972
 20
-26.5013912437
 10
243.2877154647
 20
-23.0576929227
 10
244.9941939457
 20
-19.6503983006
 10
246.812669774
 20
-16.2896742886
 10
248.7377218114
 20
-12.9855463207
 10
250.763597013
 20
-9.7478816236
 10
252.8842525743
 20
-6.5863435926
 10
255.0933638339
 20
-3.5103598532
 10
257.3843295417
 20
-0.5291161778
 10
259.750319274
 20
2.3484891378
 10
262.1842707996
 20
5.1138741721
 10
264.6789177383
 20
7.7587771777
 10
267.22681722
 20
10.275315134
 10
269.8203630558
 20
12.6559700583
 10
272.4518186647
 20
14.893641474
 10
275.1133282694
 20
16.9816467901
 10
277.7969488352
 20
18.9137579905
 10
280.4946722962
 20
20.684208381
 10
283.1984472874
 20
22.2877173023
 10
285.9002046628
 20
23.7194866105
 10
288.5918812035
 20
24.9752630327
 10
291.2654434898
 20
26.051278944
 10
293.9129135841
 20
26.9443401982
 10
296.5263896108
 20
27.6517710877
 10
299.098073086
 20
28.1714605387
 10
301.6202866978
 20
28.5018662925
 10
304.0855059166
 20
28.6419905673
 10
306.4863721661
 20
28.591424164
 10
308.8157178478
 20
28.3503122433
 10
311.0665966343
 20
27.9193778966
 10
313.2322887374
 20
27.2999069368
 10
315.3063272501
 20
26.4937448536
 10
317.2825297565
 20
25.5033028946
 10
319.1549904295
 20
24.3315322098
 10
320.9181274458
 20
22.9819329734
 10
322.5666750835
 20
21.458528528
 10
324.0957153323
 20
19.7658714661
 10
325.5006857957
 20
17.9090086474
 10
326.7773902283
 20
15.8934842402
 10
327.9220196085
 20
13.7253108216
 10
328.9311626758
 20
11.4109632927
 10
329.8018006622
 20
8.9573438978
 10
330.5313362682
 20
6.3717761385
 10
331.117598931
 20
3.6619804376
 10
331.5588290197
 20
0.8360376389
 10
331.853719982
 20
-2.0976125177
 10
332.0013814657
 20
-5.1302208233
 10
332.0013814657
 20
-8.2527316452
 10
331.853719982
 20
-11.455826271
 10
331.5588290197
 20
-14.7299502856
 10
331.117598931
 20
-18.065326501
 10
330.5313362682
 20
-21.4520066645
 10
329.8018006622
 20
-24.8798783055
 10
328.9311626758
 20
-28.3387149228
 10
327.9220196085
 20
-31.8181942367
 10
326.7773902283
 20
-35.3079286075
 10
325.5006857957
 20
-38.7975045765
 10
324.0957153323
 20
-42.2765117639
 10
322.5666750835
 20
-45.7345611197
 10
320.9181274458
 20
-49.1613381531
 10
319.1549904295
 20
-52.546612058
 10
317.2825297565
 20
-55.8802798185
 10
315.3063272501
 20
-59.1523966246
 10
313.2322887374
 20
-62.3531926034
 10
311.0665966343
 20
-65.4731184418
 10
308.8157178478
 20
-68.5028621182
 10
306.4863721661
 20
-71.4333793174
 10
304.0855059166
 20
-74.255926889
 10
301.6202866978
 20
-76.9620841394
 10
299.098073086
 20
-79.5437642363
 10
296.5263896108
 20
-81.9932773245
 10
293.9129135841
 20
-84.3033016272
 10
291.2654434898
 20
-86.46694428
 10
288.5918812035
 20
-88.4777576794
 10
285.9002046628
 20
-90.329724841
 10
283.1984472874
 20
-92.0173382005
 10
280.4946722962
 20
-93.5355414365
 10
277.7969488352
 20
-94.8798162554
 10
275.1133282694
 20
-96.046147408
 10
272.4518186647
 20
-97.0310556727
 10
269.8203630558
 20
-97.8315982329
 10
267.22681722
 20
-98.445387592
 10
264.6789177383
 20
-98.8705917605
 10
262.1842707996
 20
-99.1059468024
 10
259.750319274
 20
-99.150742383
 10
257.3843295417
 20
-99.0048506662
 10
255.0933638339
 20
-98.6686996946
 10
252.8842525743
 20
-98.1433015249
 10
250.763597013
 20
-97.4302202882
 10
248.7377218114
 20
-96.5315813112
 10
246.812669774
 20
-95.4500711159
 10
244.9941939457
 20
-94.1889146048
 10
243.2877154647
 20
-92.7518780988
 10
241.6983261972
 20
-91.1432495654
 10
240.2307755662
 20
-89.3678249294
 10
238.8894363073
 20
-87.4309095901
 10
237.6783150052
 20
-85.3382803997
 10
236.6010310205
 20
-83.096181098
 10
235.6607875138
 20
-80.7113086218
 10
234.8604030555
 20
-78.1907750847
 10
234.2022589426
 20
-75.5421039694
 10
233.6883202719
 20
-72.773201993
 10
233.3201201349
 20
-69.8923317286
 10
233.0987648865
 20
-66.9080872712
 10
233.0249025345
 20
-63.8293813067
  0
LWPOLYLINE
  5
E5
330
1F
100
AcDbEntity
  8
0
  6
Continuous
 62
     7
370
    25
100
AcDbPolyline
 90
      105
 70
   128
 43
0.0
 10
242.0051578885
 20
-58.6451902395
 10
242.0790808266
 20
-55.7775391421
 10
242.3005756864
 20
-52.8350042819
 10
242.6688337753
 20
-49.8283240796
 10
243.1825142966
 20
-46.768465805
 10
243.8397443497
 20
-43.6665962999
 10
244.6381189302
 20
-40.5340355891
 10
245.5747325396
 20
-37.3822116363
 10
246.6461633806
 20
-34.2226253613
 10
247.848499699
 20
-31.0668080562
 10
249.1773608566
 20
-27.9262711973
 10
250.6278920633
 20
-24.8124790675
 10
252.1948038896
 20
-21.7367894443
 10
253.8723775351
 20
-18.7104277442
 10
255.6544911699
 20
-15.7444353141
 10
257.5346436428
 20
-12.8496344517
 10
259.5059729198
 20
-10.0365903846
 10
261.561287695
 20
-7.3155626034
 10
263.6930871465
 20
-4.6964873727
 10
265.8935925465
 20
-2.1889138557
 10
268.1547736033
 20
0.1980050092
 10
270.4683813884
 20
2.455555852
 10
272.825972044
 20
4.5755089749
 10
275.218944979
 20
6.5501221518
 10
277.6385662468
 20
8.3721906264
 10
280.0760087168
 20
10.0350703021
 10
282.5223774283
 20
11.5326923789
 10
284.9687461398
 20
12.8595874948
 10
287.4061886098
 20
14.0109189928
 10
289.8258098776
 20
14.9824857699
 10
292.2187828126
 20
15.7707403344
 10
294.5763734682
 20
16.3728034427
 10
296.8899812533
 20
16.7864872898
 10
299.1511623101
 20
17.0102725026
 10
301.3516677101
 20
17.0433484412
 10
303.4834671616
 20
16.8855964665
 10
305.5387819368
 20
16.5375846137
 10
307.5101112139
 20
16.0005888828
 10
309.3902636867
 20
15.2765658592
 10
311.1723773215
 20
14.368158035
 10
312.849950967
 20
13.2786816382
 10
314.4168627933
 20
12.0121099015
 10
315.867394
 20
10.573065455
 10
317.1962551576
 20
8.9667990308
 10
318.398591476
 20
7.1991696904
 10
319.470022317
 20
5.2766311332
 10
320.4066359264
 20
3.2061982358
 10
321.2050105069
 20
0.9954211948
 10
321.86224056
 20
-1.3476266429
 10
322.3759210813
 20
-3.8144020117
 10
322.7441791702
 20
-6.3959004749
 10
322.96567403
 20
-9.0827028133
 10
323.0395969681
 20
-11.8650043031
 10
322.96567403
 20
-14.7326554005
 10
322.7441791702
 20
-17.6751902606
 10
322.3759210813
 20
-20.681870463
 10
321.86224056
 20
-23.7417287375
 10
321.2050105069
 20
-26.8435982427
 10
320.4066359264
 20
-29.9761589534
 10
319.470022317
 20
-33.1279829062
 10
318.398591476
 20
-36.2875691812
 10
317.1962551576
 20
-39.4433864863
 10
315.867394
 20
-42.5839233453
 10
314.4168627933
 20
-45.6977154751
 10
312.849950967
 20
-48.7734050983
 10
311.1723773215
 20
-51.7997667983
 10
309.3902636867
 20
-54.7657592284
 10
307.5101112139
 20
-57.6605600908
 10
305.5387819368
 20
-60.4736041579
 10
303.4834671616
 20
-63.1946319392
 10
301.3516677101
 20
-65.8137071698
 10
299.1511623101
 20
-68.3212806868
 10
296.8899812533
 20
-70.7081995518
 10
294.5763734682
 20
-72.9657503945
 10
292.2187828126
 20
-75.0857035174
 10
289.8258098776
 20
-77.0603166944
 10
287.4061886098
 20
-78.8823851689
 10
284.9687461398
 20
-80.5452648446
 10
282.5223774283
 20
-82.0428869215
 10
280.0760087168
 20
-83.3697820374
 10
277.6385662468
 20
-84.5211135354
 10
275.218944979
 20
-85.4926803124
 10
272.825972044
 20
-86.2809348769
 10
270.4683813884
 20
-86.8829979853
 10
268.1547736033
 20
-87.2966818324
 10
265.8935925465
 20
-87.5204670452
 10
263.6930871465
 20
-87.5535429838
 10
261.561287695
 20
-87.3957910091
 10
259.5059729198
 20
-87.0477791562
 10
257.5346436428
 20
-86.5107834253
 10
255.6544911699
 20
-85.7867604018
 10
253.8723775351
 20
-84.8783525775
 10
252.1948038896
 20
-83.7888761808
 10
250.6278920633
 20
-82.5223044441
 10
249.1773608566
 20
-81.0832599976
 10
247.848499699
 20
-79.4769935733
 10
246.6461633806
 20
-77.709364233
 10
245.5747325396
 20
-75.7868256757
 10
244.6381189302
 20
-73.7163927783
 10
243.8397443497
 20
-71.5056157374
 10
243.1825142966
 20
-69.1625678996
 10
242.6688337753
 20
-66.6957925309
 10
242.3005756864
 20
-64.1142940677
 10
242.0790808266
 20
-61.4274917292
 10
242.0051578885
 20
-58.6451902395
  0
ARC
  5
E6
330
1F
100
AcDbEntity
  8
0
  6
Continuous
 62
     7
370
    25
100
AcDbCircle
 10
369.3766168617
 20
-34.429929586
 30
0.0
 40
25.85419823010163
100
AcDbArc
 50
34.7516174549
 51
48.5371190289
  0
ARC
  5
E7
330
1F
100
AcDbEntity
  8
0
  6
Continuous
 62
     7
370
    25
100
AcDbCircle
 10
325.2778429823
 20
-110.7212759181
 30
0.0
 40
26.0174927314576
100
AcDbArc
 50
251.394836905
 51
265.5889064432
  0
LWPOLYLINE
  5
E8
330
1F
100
AcDbEntity
  8
0
  6
Continuous
 62
     7
370
    25
100
AcDbPolyline
 90
        3
 70
   128
 43
0.0
 10
421.1541307004
 20
-52.7434704889
 10
422.2267600925
 20
-54.0166483749
 10
422.73511694
 20
-54.6986518198
  0
LINE
  5
E9
330
1F
100
AcDbEntity
  8
0
  6
Continuous
 62
     7
370
    25
100
AcDbLine
 10
367.0626572215
 20
-146.5766000774
 30
0.0
 11
366.9940737622
 21
-146.5616064393
 31
0.0
  0
LWPOLYLINE
  5
EA
330
1F
100
AcDbEntity
  8
0
  6
Continuous
 62
     7
370
    25
100
AcDbPolyline
 90
       53
 70
   128
 43
0.0
 10
474.7760250667
 20
-82.733954375
 10
474.9912716562
 20
-82.8601764309
 10
476.6339819554
 20
-83.9623599331
 10
478.163122303
 20
-85.2440719835
 10
479.5727737008
 20
-86.7003538089
 10
480.8574834004
 20
-88.3255729092
 10
482.012283342
 20
-90.1134413112
 10
483.0327006913
 20
-92.0570414247
 10
483.9147947179
 20
-94.1488534229
 10
484.6551462589
 20
-96.3807856597
 10
485.2508972309
 20
-98.74420129
 10
485.69973746
 20
-101.2299585726
 10
485.9999310227
 20
-103.8284412912
 10
486.1503188807
 20
-106.5295943067
 10
486.1503188807
 20
-109.3229680439
 10
485.9999310227
 20
-112.1977551844
 10
485.69973746
 20
-115.142834013
 10
485.2508972309
 20
-118.1468111934
 10
484.6551462589
 20
-121.198066255
 10
483.9147947179
 20
-124.2847901862
 10
483.0327006913
 20
-127.3950462694
 10
482.012283342
 20
-130.5167951768
 10
480.8574834004
 20
-133.6379672112
 10
479.5727737008
 20
-136.7464805579
 10
478.163122303
 20
-139.8303112438
 10
476.6339819554
 20
-142.8775311596
 10
474.9912716562
 20
-145.8763476023
 10
473.2413450428
 20
-148.8151595461
 10
471.3909719526
 20
-151.6826002271
 10
469.4473120816
 20
-154.4675706005
 10
467.4178833739
 20
-157.1593001756
 10
465.3105383141
 20
-159.7473728683
 10
463.1334310005
 20
-162.2217794709
 10
460.8949829001
 20
-164.5729435038
 10
458.6038538733
 20
-166.791771404
 10
456.2689085876
 20
-168.869674955
 10
453.8991796396
 20
-170.7986199537
 10
451.5038362737
 20
-172.5711412257
 10
449.0921448696
 20
-174.1803806456
 10
446.6734358917
 20
-175.6201153416
 10
444.2570666402
 20
-176.884770074
 10
441.852386101
 20
-177.9694557772
 10
439.4686973264
 20
-178.8699760681
 10
437.1152219154
 20
-179.5828477512
 10
434.8010655628
 20
-180.1053115809
 10
432.535179864
 20
-180.4353451855
 10
430.3263333393
 20
-180.5716706696
 10
428.1830712621
 20
-180.5137656364
 10
426.1136833907
 20
-180.2618483563
 10
424.1261789435
 20
-179.8168982965
 10
422.2282431347
 20
-179.1806355847
 10
420.42722137
 20
-178.3555179658
 10
419.7804937847
 20
-177.9993325094
  0
LWPOLYLINE
  5
EB
330
1F
100
AcDbEntity
  8
0
  6
Continuous
 62
     1
370
    25
100
AcDbPolyline
 90
       57
 70
   128
 43
0.0
 10
384.8509361501
 20
-13.7155904628
 10
385.7949939466
 20
-14.4706848562
 10
387.4435415844
 20
-15.9940893016
 10
388.9725818331
 20
-17.6867463635
 10
390.3775522966
 20
-19.5436091822
 10
391.6542567292
 20
-21.5591335893
 10
392.7988861094
 20
-23.727307008
 10
393.8080291767
 20
-26.0416545369
 10
394.6786671631
 20
-28.4952739317
 10
395.408202769
 20
-31.0808416911
 10
395.9944654318
 20
-33.790637392
 10
396.4356955205
 20
-36.6165801906
 10
396.7305864828
 20
-39.5502303473
 10
396.8782479666
 20
-42.5828386529
 10
396.8782479666
 20
-45.7053494747
 10
396.7305864828
 20
-48.9084441005
 10
396.4356955205
 20
-52.1825681151
 10
395.9944654318
 20
-55.5179443306
 10
395.408202769
 20
-58.9046244941
 10
394.6786671631
 20
-62.3324961351
 10
393.8080291767
 20
-65.7913327523
 10
392.7988861094
 20
-69.2708120663
 10
391.6542567292
 20
-72.7605464371
 10
390.3775522966
 20
-76.250122406
 10
388.9725818331
 20
-79.7291295935
 10
387.4435415844
 20
-83.1871789492
 10
385.7949939466
 20
-86.6139559827
 10
384.0318569303
 20
-89.9992298876
 10
382.1593962574
 20
-93.3328976481
 10
380.183193751
 20
-96.6050144542
 10
378.1091552383
 20
-99.8058104329
 10
375.9434631352
 20
-102.9257362713
 10
373.6925843487
 20
-105.9554799477
 10
371.3632386669
 20
-108.885997147
 10
368.9623724175
 20
-111.7085447186
 10
366.4971531987
 20
-114.414701969
 10
363.9749395869
 20
-116.9963820659
 10
361.4032561117
 20
-119.4458951541
 10
358.7897800849
 20
-121.7559194568
 10
356.1423099906
 20
-123.9195621096
 10
353.4687477044
 20
-125.930375509
 10
350.7770711637
 20
-127.7823426705
 10
348.0753137882
 20
-129.4699560301
 10
345.3715387971
 20
-130.9881592661
 10
342.673815336
 20
-132.3324340849
 10
339.9901947702
 20
-133.4987652376
 10
337.3286851656
 20
-134.4836735022
 10
334.6972295567
 20
-135.2842160624
 10
332.1036837209
 20
-135.8980054216
 10
329.5557842391
 20
-136.3232095901
 10
327.0611373004
 20
-136.5585646319
 10
324.6271857749
 20
-136.6033602126
 10
322.2611960426
 20
-136.4574684958
 10
319.9702303348
 20
-136.1213175242
 10
317.7611190752
 20
-135.5959193545
 10
315.6404635138
 20
-134.8828381177
 10
314.9096476974
 20
-134.5847410941
  0
LWPOLYLINE
  5
EC
330
1F
100
AcDbEntity
  8
0
  6
Continuous
 62
     1
370
    25
100
AcDbPolyline
 90
       50
 70
   128
 43
0.0
 10
390.619223643
 20
-19.6925206125
 10
390.6881521796
 20
-19.7916047485
 10
391.9637318181
 20
-21.8053541297
 10
393.1073549424
 20
-23.9716156502
 10
394.1156076575
 20
-26.2839250551
 10
394.9854764639
 20
-28.7353846631
 10
395.7143745988
 20
-31.318670974
 10
396.3001156943
 20
-34.0260833352
 10
396.740961193
 20
-36.8495348214
 10
397.0355887375
 20
-39.7806028016
 10
397.1831237808
 20
-42.8105373078
 10
397.1831237808
 20
-45.9302975353
 10
397.0355887375
 20
-49.1305723766
 10
396.740961193
 20
-52.401810079
 10
396.3001156943
 20
-55.7342509438
 10
395.7143745988
 20
-59.1179455789
 10
394.9854764639
 20
-62.542799763
 10
394.1156076575
 20
-65.9985885172
 10
393.1073549424
 20
-69.4750017283
 10
391.9637318181
 20
-72.9616624025
 10
390.6881521796
 20
-76.448164686
 10
389.284422414
 20
-79.9241042826
 10
387.7567282302
 20
-83.3791103921
 10
386.1096320246
 20
-86.8028685241
 10
384.3480491733
 20
-90.1851585184
 10
382.4772348616
 20
-93.5158925676
 10
380.5027761811
 20
-96.785125862
 10
378.4305631538
 20
-99.9831006947
 10
376.2667808297
 20
-103.1002783994
 10
374.0178855793
 20
-106.1273530372
 10
371.690589288
 20
-109.0552909386
 10
369.2918382835
 20
-111.8753550369
 10
366.8287909445
 20
-114.5791208353
 10
364.3087979449
 20
-117.1585334402
 10
361.7393811798
 20
-119.605886266
 10
359.1282074247
 20
-121.9138757861
 10
356.4830692365
 20
-124.0756125575
 10
353.8118619054
 20
-126.0846527784
 10
351.1225564542
 20
-127.9349956235
 10
348.4231791821
 20
-129.6211133047
 10
345.7217860229
 20
-131.1379841242
 10
343.0264389197
 20
-132.4810756957
 10
340.3451818702
 20
-133.6463770231
 10
337.6860173425
 20
-134.6304181999
 10
335.0568804688
 20
-135.4302548878
 10
332.4656184654
 20
-136.0435045327
 10
329.9199633033
 20
-136.4683378059
 10
327.4275132691
 20
-136.7034831661
 10
324.9957059645
 20
-136.748236362
 10
323.2767836265
 20
-136.661701695
  0
LWPOLYLINE
  5
ED
330
1F
100
AcDbEntity
  8
0
  6
Continuous
 62
     1
370
    25
100
AcDbPolyline
 90
       46
 70
   128
 43
0.0
 10
422.73511694
 20
-54.6986518198
 10
423.4257483706
 20
-55.722596256
 10
424.4946187906
 20
-57.5843446904
 10
425.4293173526
 20
-59.5948316393
 10
426.2262984528
 20
-61.7464308482
 10
426.8825354209
 20
-64.0309830267
 10
427.3955415926
 20
-66.4398186645
 10
427.7633729446
 20
-68.9638006176
 10
427.9846307284
 20
-71.5933564281
 10
428.0584772753
 20
-74.3185098848
 10
427.9846307284
 20
-77.1289247499
 10
427.7633729446
 20
-80.0139393599
 10
427.3955415926
 20
-82.9626103523
 10
426.8825354209
 20
-85.9637503084
 10
426.2262984528
 20
-89.0059775626
 10
425.4293173526
 20
-92.0777515634
 10
424.4946187906
 20
-95.167418501
 10
423.4257483706
 20
-98.263258454
 10
422.2267600925
 20
-101.3535287348
 10
420.9022005476
 20
-104.426507995
 10
419.4570931135
 20
-107.470537289
 10
417.8969247829
 20
-110.4740687422
 10
416.2276119198
 20
-113.4257111755
 10
414.4554818197
 20
-116.3142681271
 10
412.5872648075
 20
-119.1287819583
 10
410.6300415538
 20
-121.8585733926
 10
408.5912391236
 20
-124.4932924665
 10
406.4785901464
 20
-127.0229390581
 10
404.3001091089
 20
-129.437922201
 10
402.0640607447
 20
-131.7290813742
 10
399.77892579
 20
-133.8877184385
 10
397.4533733247
 20
-135.9056531476
 10
395.0962245524
 20
-137.7752258062
 10
392.7164211904
 20
-139.4893489788
 10
390.3229904024
 20
-141.0415125242
 10
387.9250115413
 20
-142.4258362545
 10
385.5315807533
 20
-143.6370690765
 10
383.1517773913
 20
-144.6706083799
 10
380.794628619
 20
-145.5225417649
 10
378.4690761537
 20
-146.18963278
 10
376.183941199
 20
-146.6693563753
 10
373.9478928348
 20
-146.9598836907
 10
371.7694117973
 20
-147.0601212157
 10
369.6567628201
 20
-146.969687213
 10
367.6179603899
 20
-146.6889193198
 10
367.0626572215
 20
-146.5766000774
  0
LWPOLYLINE
  5
EE
330
1F
100
AcDbEntity
  8
0
  6
Continuous
 62
     1
370
    25
100
AcDbPolyline
 90
       48
 70
   128
 43
0.0
 10
420.3665062005
 20
-51.8820582957
 10
421.7669748537
 20
-53.3297764472
 10
423.0516845533
 20
-54.9549955475
 10
424.2064844949
 20
-56.7428639495
 10
425.2269018442
 20
-58.686464063
 10
426.1089958709
 20
-60.7782760612
 10
426.8493474118
 20
-63.010208298
 10
427.4450983839
 20
-65.3736239283
 10
427.8939386129
 20
-67.8593812109
 10
428.1941321756
 20
-70.4578639295
 10
428.3445200337
 20
-73.159016945
 10
428.3445200337
 20
-75.9523906822
 10
428.1941321756
 20
-78.8271778227
 10
427.8939386129
 20
-81.7722566514
 10
427.4450983839
 20
-84.7762338317
 10
426.8493474118
 20
-87.8274888933
 10
426.1089958709
 20
-90.9142128245
 10
425.2269018442
 20
-94.0244689077
 10
424.2064844949
 20
-97.1462178151
 10
423.0516845533
 20
-100.2673898495
 10
421.7669748537
 20
-103.3759031962
 10
420.3573234559
 20
-106.4597338821
 10
418.8281831084
 20
-109.5069537979
 10
417.1854728092
 20
-112.5057702406
 10
415.4355461957
 20
-115.4445821845
 10
413.5851731055
 20
-118.3120228654
 10
411.6415132345
 20
-121.0969932388
 10
409.6120845268
 20
-123.7887228139
 10
407.5047394671
 20
-126.3767955066
 10
405.3276321535
 20
-128.8512021092
 10
403.0891840531
 20
-131.2023661421
 10
400.7980550263
 20
-133.4211940423
 10
398.4631097406
 20
-135.4990975934
 10
396.0933807926
 20
-137.428042592
 10
393.6980374266
 20
-139.200563864
 10
391.2863460225
 20
-140.8098032839
 10
388.8676370447
 20
-142.2495379799
 10
386.4512677932
 20
-143.5141927123
 10
384.0465872539
 20
-144.5988784155
 10
381.6628984794
 20
-145.4993987064
 10
379.3094230683
 20
-146.2122703895
 10
376.9952667157
 20
-146.7347342192
 10
374.729381017
 20
-147.0647678238
 10
372.5205344922
 20
-147.2010933079
 10
370.377272415
 20
-147.1431882748
 10
368.3078845437
 20
-146.8912709946
 10
366.3203800964
 20
-146.4463209348
 10
365.8542333177
 20
-146.3103170763
  0
ENDSEC
  0
SECTION
  2
OBJECTS
  0
DICTIONARY
  5
C
330
0
100
AcDbDictionary
281
     1
  3
ACAD_GROUP
350
D
  3
ACAD_LAYOUT
350
1A
  3
ACAD_MLINESTYLE
350
17
  3
ACAD_PLOTSETTINGS
350
19
  3
ACAD_PLOTSTYLENAME
350
E
  3
ACAD_SCALELIST
350
47
  0
DICTIONARY
  5
D
102
{ACAD_REACTORS
330
C
102
}
330
C
100
AcDbDictionary
281
     1
  0
DICTIONARY
  5
1A
102
{ACAD_REACTORS
330
C
102
}
330
C
100
AcDbDictionary
281
     1
  3
Layout1
350
1E
  3
Layout2
350
26
  3
Model
350
22
  0
DICTIONARY
  5
17
102
{ACAD_REACTORS
330
C
102
}
330
C
100
AcDbDictionary
281
     1
  3
Standard
350
18
  0
DICTIONARY
  5
19
102
{ACAD_REACTORS
330
C
102
}
330
C
100
AcDbDictionary
281
     1
  0
ACDBDICTIONARYWDFLT
  5
E
102
{ACAD_REACTORS
330
C
102
}
330
C
100
AcDbDictionary
281
     1
  3
Normal
350
F
100
AcDbDictionaryWithDefault
340
F
  0
DICTIONARY
  5
47
102
{ACAD_REACTORS
330
C
102
}
330
C
100
AcDbDictionary
281
     1
  3
A0
350
48
  3
A1
350
49
  3
A2
350
4A
  3
A3
350
4B
  3
A4
350
4C
  3
A5
350
4D
  3
A6
350
4E
  3
A7
350
4F
  3
A8
350
50
  3
A9
350
51
  3
B0
350
52
  3
B1
350
53
  3
B2
350
54
  3
B3
350
55
  3
B4
350
56
  3
B5
350
57
  3
B6
350
58
  3
B7
350
59
  3
B8
350
5A
  3
B9
350
5B
  3
C0
350
5C
  3
C1
350
5D
  3
C2
350
5E
  3
C3
350
5F
  3
C4
350
60
  3
C5
350
61
  3
C6
350
62
  3
C7
350
63
  3
C8
350
64
  3
C9
350
65
  3
D0
350
66
  3
D1
350
67
  3
D2
350
68
  0
LAYOUT
  5
1E
102
{ACAD_REACTORS
330
1A
102
}
330
1A
100
AcDbPlotSettings
  1

  2
none_device
  4

  6

 40
0.0
 41
0.0
 42
0.0
 43
0.0
 44
0.0
 45
0.0
 46
0.0
 47
0.0
 48
0.0
 49
0.0
140
0.0
141
0.0
142
1.0
143
1.0
 70
   688
 72
     1
 73
     0
 74
     5
  7

 75
    16
147
1.0
148
0.0
149
0.0
100
AcDbLayout
  1
Layout1
 70
     1
 71
     1
 10
0.0
 20
0.0
 11
420.0
 21
297.0
 12
0.0
 22
0.0
 32
0.0
 14
1.0000000000E+20
 24
1.0000000000E+20
 34
1.0000000000E+20
 15
-1.0000000000E+20
 25
-1.0000000000E+20
 35
-1.0000000000E+20
146
0.0
 13
0.0
 23
0.0
 33
0.0
 16
1.0
 26
0.0
 36
0.0
 17
0.0
 27
1.0
 37
0.0
 76
     0
330
1B
  0
LAYOUT
  5
26
102
{ACAD_REACTORS
330
1A
102
}
330
1A
100
AcDbPlotSettings
  1

  2
none_device
  4

  6

 40
0.0
 41
0.0
 42
0.0
 43
0.0
 44
0.0
 45
0.0
 46
0.0
 47
0.0
 48
0.0
 49
0.0
140
0.0
141
0.0
142
1.0
143
1.0
 70
   688
 72
     1
 73
     0
 74
     5
  7

 75
    16
147
1.0
148
0.0
149
0.0
100
AcDbLayout
  1
Layout2
 70
     1
 71
     2
 10
0.0
 20
0.0
 11
0.0
 21
0.0
 12
0.0
 22
0.0
 32
0.0
 14
0.0
 24
0.0
 34
0.0
 15
0.0
 25
0.0
 35
0.0
146
0.0
 13
0.0
 23
0.0
 33
0.0
 16
1.0
 26
0.0
 36
0.0
 17
0.0
 27
1.0
 37
0.0
 76
     0
330
23
  0
LAYOUT
  5
22
102
{ACAD_REACTORS
330
1A
102
}
330
1A
100
AcDbPlotSettings
  1

  2
none_device
  4
Letter_(8.50_x_11.00_Inches)
  6

 40
6.35
 41
6.35
 42
6.35000508
 43
6.35000508
 44
215.9
 45
279.4
 46
0.0
 47
0.0
 48
0.0
 49
0.0
140
0.0
141
0.0
142
1.0
143
1.0
 70
  1712
 72
     1
 73
     0
 74
     0
  7

 75
     0
147
1.0
148
0.0
149
0.0
100
AcDbLayout
  1
Model
 70
     1
 71
     0
 10
0.0
 20
0.0
 11
279.4
 21
215.9
 12
0.0
 22
0.0
 32
0.0
 14
0.0
 24
0.0
 34
0.0
 15
279.4
 25
215.9
 35
0.0
146
0.0
 13
0.0
 23
0.0
 33
0.0
 16
1.0
 26
0.0
 36
0.0
 17
0.0
 27
1.0
 37
0.0
 76
     0
330
1F
331
29
  0
MLINESTYLE
  5
18
102
{ACAD_REACTORS
330
17
102
}
330
17
100
AcDbMlineStyle
  2
Standard
 70
     0
  3

 62
   256
 51
90.0
 52
90.0
 71
     2
 49
0.5
 62
   256
  6
BYLAYER
 49
-0.5
 62
   256
  6
BYLAYER
  0
ACDBPLACEHOLDER
  5
F
102
{ACAD_REACTORS
330
E
102
}
330
E
  0
SCALE
  5
48
102
{ACAD_REACTORS
330
47
102
}
330
47
100
AcDbScale
 70
     0
300
1:1
140
1.0
141
1.0
290
     1
  0
SCALE
  5
49
102
{ACAD_REACTORS
330
47
102
}
330
47
100
AcDbScale
 70
     0
300
1:2
140
1.0
141
2.0
290
     0
  0
SCALE
  5
4A
102
{ACAD_REACTORS
330
47
102
}
330
47
100
AcDbScale
 70
     0
300
1:4
140
1.0
141
4.0
290
     0
  0
SCALE
  5
4B
102
{ACAD_REACTORS
330
47
102
}
330
47
100
AcDbScale
 70
     0
300
1:5
140
1.0
141
5.0
290
     0
  0
SCALE
  5
4C
102
{ACAD_REACTORS
330
47
102
}
330
47
100
AcDbScale
 70
     0
300
1:8
140
1.0
141
8.0
290
     0
  0
SCALE
  5
4D
102
{ACAD_REACTORS
330
47
102
}
330
47
100
AcDbScale
 70
     0
300
1:10
140
1.0
141
10.0
290
     0
  0
SCALE
  5
4E
102
{ACAD_REACTORS
330
47
102
}
330
47
100
AcDbScale
 70
     0
300
1:16
140
1.0
141
16.0
290
     0
  0
SCALE
  5
4F
102
{ACAD_REACTORS
330
47
102
}
330
47
100
AcDbScale
 70
     0
300
1:20
140
1.0
141
20.0
290
     0
  0
SCALE
  5
50
102
{ACAD_REACTORS
330
47
102
}
330
47
100
AcDbScale
 70
     0
300
1:30
140
1.0
141
30.0
290
     0
  0
SCALE
  5
51
102
{ACAD_REACTORS
330
47
102
}
330
47
100
AcDbScale
 70
     0
300
1:40
140
1.0
141
40.0
290
     0
  0
SCALE
  5
52
102
{ACAD_REACTORS
330
47
102
}
330
47
100
AcDbScale
 70
     0
300
1:50
140
1.0
141
50.0
290
     0
  0
SCALE
  5
53
102
{ACAD_REACTORS
330
47
102
}
330
47
100
AcDbScale
 70
     0
300
1:100
140
1.0
141
100.0
290
     0
  0
SCALE
  5
54
102
{ACAD_REACTORS
330
47
102
}
330
47
100
AcDbScale
 70
     0
300
2:1
140
2.0
141
1.0
290
     0
  0
SCALE
  5
55
102
{ACAD_REACTORS
330
47
102
}
330
47
100
AcDbScale
 70
     0
300
4:1
140
4.0
141
1.0
290
     0
  0
SCALE
  5
56
102
{ACAD_REACTORS
330
47
102
}
330
47
100
AcDbScale
 70
     0
300
8:1
140
8.0
141
1.0
290
     0
  0
SCALE
  5
57
102
{ACAD_REACTORS
330
47
102
}
330
47
100
AcDbScale
 70
     0
300
10:1
140
10.0
141
1.0
290
     0
  0
SCALE
  5
58
102
{ACAD_REACTORS
330
47
102
}
330
47
100
AcDbScale
 70
     0
300
100:1
140
100.0
141
1.0
290
     0
  0
SCALE
  5
59
102
{ACAD_REACTORS
330
47
102
}
330
47
100
AcDbScale
 70
     0
300
1/128" = 1'-0"
140
0.0078125
141
12.0
290
     0
  0
SCALE
  5
5A
102
{ACAD_REACTORS
330
47
102
}
330
47
100
AcDbScale
 70
     0
300
1/64" = 1'-0"
140
0.015625
141
12.0
290
     0
  0
SCALE
  5
5B
102
{ACAD_REACTORS
330
47
102
}
330
47
100
AcDbScale
 70
     0
300
1/32" = 1'-0"
140
0.03125
141
12.0
290
     0
  0
SCALE
  5
5C
102
{ACAD_REACTORS
330
47
102
}
330
47
100
AcDbScale
 70
     0
300
1/16" = 1'-0"
140
0.0625
141
12.0
290
     0
  0
SCALE
  5
5D
102
{ACAD_REACTORS
330
47
102
}
330
47
100
AcDbScale
 70
     0
300
3/32" = 1'-0"
140
0.09375
141
12.0
290
     0
  0
SCALE
  5
5E
102
{ACAD_REACTORS
330
47
102
}
330
47
100
AcDbScale
 70
     0
300
1/8" = 1'-0"
140
0.125
141
12.0
290
     0
  0
SCALE
  5
5F
102
{ACAD_REACTORS
330
47
102
}
330
47
100
AcDbScale
 70
     0
300
3/16" = 1'-0"
140
0.1875
141
12.0
290
     0
  0
SCALE
  5
60
102
{ACAD_REACTORS
330
47
102
}
330
47
100
AcDbScale
 70
     0
300
1/4" = 1'-0"
140
0.25
141
12.0
290
     0
  0
SCALE
  5
61
102
{ACAD_REACTORS
330
47
102
}
330
47
100
AcDbScale
 70
     0
300
3/8" = 1'-0"
140
0.375
141
12.0
290
     0
  0
SCALE
  5
62
102
{ACAD_REACTORS
330
47
102
}
330
47
100
AcDbScale
 70
     0
300
1/2" = 1'-0"
140
0.5
141
12.0
290
     0
  0
SCALE
  5
63
102
{ACAD_REACTORS
330
47
102
}
330
47
100
AcDbScale
 70
     0
300
3/4" = 1'-0"
140
0.75
141
12.0
290
     0
  0
SCALE
  5
64
102
{ACAD_REACTORS
330
47
102
}
330
47
100
AcDbScale
 70
     0
300
1" = 1'-0"
140
1.0
141
12.0
290
     0
  0
SCALE
  5
65
102
{ACAD_REACTORS
330
47
102
}
330
47
100
AcDbScale
 70
     0
300
1-1/2" = 1'-0"
140
1.5
141
12.0
290
     0
  0
SCALE
  5
66
102
{ACAD_REACTORS
330
47
102
}
330
47
100
AcDbScale
 70
     0
300
3" = 1'-0"
140
3.0
141
12.0
290
     0
  0
SCALE
  5
67
102
{ACAD_REACTORS
330
47
102
}
330
47
100
AcDbScale
 70
     0
300
6" = 1'-0"
140
6.0
141
12.0
290
     0
  0
SCALE
  5
68
102
{ACAD_REACTORS
330
47
102
}
330
47
100
AcDbScale
 70
     0
300
1'-0" = 1'-0"
140
12.0
141
12.0
290
     0
  0
ENDSEC
  0
EOF
